Feeling good solo

E|-------------------
B|-------------------
G|-------------------
D|-------------------
A|-4-4-4-4-4-4-6-----
E|-2-2-2-2-2-2-4--14\



E|-------------------------------------------------------
B|-------------------------------------------------------
G|---------9---11-9-11b11-9-11b11-9-11b11-9-11b11-9----9-
D|----9-11------------------------------------------11---
A|-11----------------------------------------------------
E|-------------------------------------------------------



E|---------------------------------------------------
B|---------------------------------------------------
G|-8h9-8---------------------------------------------
D|-------11-9-11--11-11-11\9-9-9\6-6-6\4-4-6-4-2-----
A|-----------------------------------------------2-4-
E|---------------------------------------------------



E|--------------------------------------------------------------4--7/9-12-9-12-14-21-
B|------------------------------------------------------5-7-5-7----------------------
G|----------------------------------------------4-6-4-6------------------------------
D|---------------2--4r2---4r2---4r2---4r2-4-4/6--------------------------------------
A|-4r2-4r2-4r2-4--------4-----4-----4------------------------------------------------
E|-----------------------------------------------------------------------------------
Guitar Tab Creator is intended to store guitar tab created through the tool. It currently does not support in-line text editing. Any text you place in here will be lost. If you need to comment on your tab, please use the "Tab Notes" section located below.