Feeling Good

(/) Slide Up  (\) Slide Down  (h) Hammer On  (p) Pull Off  (b) Bend (r) Release (v) Vibrato


E|--------------------------------
B|--------------------------------
G|------7-8-7-8-7-8-7-------------
D|-7-10---------------10-7----7-7-
A|-------------------------10-----
E|--------------------------------



E|-------------------------------------------------
B|-------------------------------------------------
G|-------------------------------------------------
D|-------------------------------------------------
A|-7-7-7-7-7-7-5-5-5-5-5-5-3-3-3-3-3-3-2-2-2-2-2-2-
E|-5-5-5-5-5-5-3-3-3-3-3-3-1-1-1-1-1-1-0-0-0-3-0-3-
http://www.guitartabcreator.com
Guitar Tab Creator is intended to store guitar tab created through the tool. It currently does not support in-line text editing. Any text you place in here will be lost. If you need to comment on your tab, please use the "Tab Notes" section located below.