Concierto de Aranjuez 2nd Movement

(/) Slide Up  (\) Slide Down  (h) Hammer On  (p) Pull Off  (b) Bend (r) Release (v) Vibrato


E|----------------------------5--5-5h7r5-----------------------------------
B|-7r5-7--8r7r5-7-5-7---7-7-8------------8-7r5-7--8r7r5-8r7r5-7-8r7r5-7----
G|-------------------------------------------------------------------------
D|-------------------------------------------------------------------------
A|-------------------------------------------------------------------------
E|-------------------------------------------------------------------------



E|-------5-7-7-7-7-9-5----------------------------------------------------------------
B|-7-7-8-------------5-8-8-7-7-5-5-8r7r5-7-8r7r5-7--8-7-7-5-5-3-3---------------------
G|-------------------6--------------------------------------------6-7r6r4-6-6h7r6-4-6-
D|-------------------7----------------------------------------------------------------
A|------------------------------------------------------------------------------------
E|------------------------------------------------------------------------------------



E|----------------------
B|----------------------
G|-6-6-7-7/9--7-6-6-4-4-
D|----------------------
A|----------------------
E|----------------------
http://www.guitartabcreator.com
Guitar Tab Creator is intended to store guitar tab created through the tool. It currently does not support in-line text editing. Any text you place in here will be lost. If you need to comment on your tab, please use the "Tab Notes" section located below.