concierto de aranjuez

(/) Slide Up  (\) Slide Down  (h) Hammer On  (p) Pull Off  (b) Bend (r) Release (v) Vibrato


E|-7-5-7--9r7r5-9r7r5-7-9r7r5-7---7-7-9-10h12r10-12----------9r7r5-9r7r5-7-9r7r
B|--------------------------------------------------10-8-10--------------------
G|-----------------------------------------------------------------------------
D|-----------------------------------------------------------------------------
A|-----------------------------------------------------------------------------
E|-3---------------------------------------------------------------------------



E|-5-7--9-9-7-7-----------
B|--------------10-10-8-8-
G|------------------------
D|------------------------
A|------------------------
E|------------------------
http://www.guitartabcreator.com
Guitar Tab Creator is intended to store guitar tab created through the tool. It currently does not support in-line text editing. Any text you place in here will be lost. If you need to comment on your tab, please use the "Tab Notes" section located below.