Classico Part 2

(/) Slide Up  (\) Slide Down  (h) Hammer On  (p) Pull Off  (b) Bend (r) Release (v) Vibrato
E|-7-6-7-6-7------------------------------7-6-7-6-7--------------------------
B|-----------7-10-8----------7-----7-8--------------7-10-8---------7---8-7---
G|------------------9------9-----8-------------------------9-----9---------9-
D|-----------------------9-------------------------------------9-------------
A|---------------------7----------------7--------------------7---------------
E|-----------------------------7-------------------------------------7-------



E|------------7-----8--7---------7------------------------------------------------------------7--6--7--6--7------------------------------------------------
B|-----8--10--------------10--------10--8-----10--8--7-------------------------------------------------------7--10--8--------------------------------------
G|--9------------9------------9------------9--------------9--8--9--8--9--8---------------------------------------------9--9--9--9--9--9--9--9--8--8--8--8--
D|---------------------------------------------------------------------------------------------------------------------------------------------------------
A|---------------------------------------------------------------------------------------------------------------------------------------------------------
E|--------------------------------------------------------------------------7--6--7--6--7--6---------------------------------------------------------------
http://www.guitartabcreator.com
Guitar Tab Creator is intended to store guitar tab created through the tool. It currently does not support in-line text editing. Any text you place in here will be lost. If you need to comment on your tab, please use the "Tab Notes" section located below.