Classico Part 1

(/) Slide Up  (\) Slide Down  (h) Hammer On  (p) Pull Off  (b) Bend (r) Release (v) Vibrato


E|-0-2-3-2r0---0h2-------0-
B|-----------4-----0-2h4---
G|-------------------------
D|-------------------------
A|-----------2-------------
E|-3-2-0-----------3-2---0-



E|---------------------------
B|-3-1-0---------------------
G|-------2r0---0h2-4-2r0-----
D|-----------4-----------4-2-
A|-2-0-------------2---------
E|-----3-----2-----------2-0-
http://www.guitartabcreator.com
Guitar Tab Creator is intended to store guitar tab created through the tool. It currently does not support in-line text editing. Any text you place in here will be lost. If you need to comment on your tab, please use the "Tab Notes" section located below.