Hopeless

(/) Slide Up  (\) Slide Down  (h) Hammer On  (p) Pull Off  (b) Bend (r) Release (v) Vibrato


E|-----------------------------------------------------------------------------------------------
B|-------8-------------------------------8--8--8----------------------------------8--------------
G|-------7-------------------------------7--7--7----------------------------------7--------------
D|-------6-------------------------------6--6--6----------------------------------6--------------
A|-------7--------7--------5-------------7--7--7-----7--7--7-----5--5--5----------7--------7-----
E|--3b0-----3--0--5--5--0--3--3--0--3b0-----------0--5--5--5--0--3--3--3--0--3b0-----3--0--5-----



E|------------------------------------------------------------------------------------------------
B|---------------------8--8--8-----------------------------5--5--5--5--5--4--4--4--4--4--2--2--2--
G|---------------------7--7--7-----------------------------5--5--5--5--5--4--4--4--4--4--2--2--2--
D|---------------------6--6--6-----------------------------5--5--5--5--5--4--4--4--4--4--2--2--2--
A|--------5--5h7-------7--7--7-----7--7--7-----5--5--5-----3--3--3--3--3--2--2--2--2--2--0--0--0--
E|--5--0--3-------3b0-----------0--5--5--5--0--3--3--3--0-----------------------------------------



E|-----------------------
B|--2--2-----------------
G|--2--2-----------------
D|--2--2-----------------
A|--0--0--5--5--5--5--5--
E|--------3--3--3--3--3--
http://www.guitartabcreator.com
Guitar Tab Creator is intended to store guitar tab created through the tool. It currently does not support in-line text editing. Any text you place in here will be lost. If you need to comment on your tab, please use the "Tab Notes" section located below.