Untitled

(/) Slide Up  (\) Slide Down  (h) Hammer On  (p) Pull Off  (b) Bend (r) Release (v) Vibrato

E|----------------------------------0--|----------------------------------0--|--
B|----------------------------------1--|----------------------------------1--|--
G|-----4-----7-------7--------2-----2--|-----4-----7-------7--------2-----2--|--
D|--5-----5-------5-----5--3-----3--3--|--5-----5-------5-----5--3-----3--3--|--
A|-------------------------------------|-------------------------------------|--
E|-------------------------------------|-------------------------------------|--



E|-----------------------------0--|----------------------------------------------------|--
B|-----------------------------1--|-----6--------6--------6-------4--------4--------4--|--
G|--------2--------0-----------2--|--------7--------7----------------5--------5--------|--
D|-----3--------2-----------0--2--|--7--------7--------7-------5--------5--------5-----|--
A|--0--------3-----------2-----0--|--5-------------------------3-----------------------|--
E|--------------------3-----------|----------------------------------------------------|--



E|-----------------------------------------------------------------------------
B|-----6--------6--------6--------------------------------------------------6--
G|--------7--------7-----------4--------4--------4-----6--------6--------6--7--
D|--7--------7--------7-----------5--------5--------------7--------7--------7--
A|--5-----------------------5--------5--------5-----7--------7--------7-----5--
E|--------------------------3-----------------------5--------------------------
http://www.guitartabcreator.com
Guitar Tab Creator is intended to store guitar tab created through the tool. It currently does not support in-line text editing. Any text you place in here will be lost. If you need to comment on your tab, please use the "Tab Notes" section located below.