WhileMyGuitarGentlyWeeps

(/) Slide Up  (\) Slide Down  (h) Hammer On  (p) Pull Off  (b) Bend (r) Release (v) Vibrato
E|-----------------------------------------
B|-------------------13b15--15b17--13------
G|--17r14--12h14b17--------------------14--
D|-----------------------------------------
A|-----------------------------------------
E|-----------------------------------------



E|--------------------------------------
B|--------------------------------------
G|--12h14b17--14b17v--12h14b17--14b17v--
D|--------------------------------------
A|--------------------------------------
E|--------------------------------------



E|----------------------------------15-----------------
B|------------15b17--15--13--15b17------17r15--15--13--
G|--12h14b17-------------------------------------------
D|-----------------------------------------------------
A|-----------------------------------------------------
E|-----------------------------------------------------



E|--15b17--15b17--15b17--15b17v--17r15--15b17--
B|---------------------------------------------
G|---------------------------------------------
D|---------------------------------------------
A|---------------------------------------------
E|---------------------------------------------



E|--12---------15-------------------15---------
B|------15b17------17r15--13h15b17------17r15--
G|---------------------------------------------
D|---------------------------------------------
A|---------------------------------------------
E|---------------------------------------------



E|--------------------------
B|--------------------------
G|--17r14--12h14b17--14b17--
D|--------------------------
A|--------------------------
E|--------------------------



E|---------------------------------------
B|---------------------------------------
G|---------12----------------------------
D|--12h14------14--12--10--12--10h12p10--
A|---------------------------------------
E|---------------------------------------



E|------------------------------
B|------------------------------
G|---------12h14--14/17--17/19--
D|--12h14-----------------------
A|------------------------------
E|------------------------------



E|-------------17-----------------------------------
B|---------17------20b21--20b21--20b21--21r20-------
G|--19b21-------------------------------------------
D|--------------------------------------------------
A|--------------------------------------------------
E|--------------------------------------------------
http://www.guitartabcreator.com
Guitar Tab Creator is intended to store guitar tab created through the tool. It currently does not support in-line text editing. Any text you place in here will be lost. If you need to comment on your tab, please use the "Tab Notes" section located below.