Dear Milena

Notes: (0 = open string; 2 = 2nd fret; 3 = 3rd fret; h = hammer on)

E|--1-e-&-a-2-e-&-a-3-e-&-a-4-e-&-a-5-e-&-a-
B|------------------------------------------
G|--------0-------0---------0---------0-----
D|------0-------0-------0-----------0-------
A|----------0h2-----3-----------0h2-----0---
E|--3---------------------------------------

Picking:(D = down stroke, or away from low E string; U = up stroke, or towards low E; h = hammer on)

E|--1-e-&-a-2-e-&-a-3-e-&-a-4-e-&-a-5-e-&-a-
B|------------------------------------------
G|--------U-------U---------U---------U-----
D|------D-------D-------D-----------D-------
A|----------D-h-----D-----------D-h-----D---
E|--D---------------------------------------

Left hand fingers: (index = 1; middle = 2; open string = /)

E|--1-e-&-a-2-e-&-a-3-e-&-a-4-e-&-a-5-e-&-a-
B|------------------------------------------
G|--------U-------U---------U---------U-----
D|------D-------D-------D-----------D-------
A|----------/-1-----2-----------/-1-----/---
E|--2---------------------------------------
Guitar Tab Creator is intended to store guitar tab created through the tool. It currently does not support in-line text editing. Any text you place in here will be lost. If you need to comment on your tab, please use the "Tab Notes" section located below.