9.slim jeans

(/) Slide Up  (\) Slide Down  (h) Hammer On  (p) Pull Off  (b) Bend (r) Release (v) Vibrato
E|-----
B|-----
G|-----
D|-----
A|-----
E|--0--



E|-----------------------------------
B|-----------------------------------
G|-----------------------------------
D|-----------------------------------
A|-----------------------------------
E|--0--0--0--0--1--1--1--1--0--2--3--



E|-----
B|-----
G|-----
D|-----
A|-----
E|--0--



E|-----------------------------------------------------------
B|-----------------------------------------------------------
G|-----------------------------------------------------------
D|-----------------------------------------------------------
A|-----------------------------3--2--1--1--1--1--2--2--2--2--
E|--0--0--0--0--1--1--1--1--0--------------------------------



E|--------------------------------------------------
B|--------------------------------------------------
G|--------------------------------------------------
D|--------------------------------------------------
A|--0--0--0--0--0--0--0--0--0--0--0--0--0--0--0--0--
E|--------------------------------------------------



E|--------------------------------------------------
B|--------------------------------------------------
G|--------------------------------------------------
D|--------------------------------------------------
A|--3--3--3--3--3--3--3--3--3--3--3--3--3--3--3--3--
E|--------------------------------------------------



E|--------------------------------------------------------------------------------------------------
B|--------------------------------------------------------------------------------------------------
G|--------------------------------------------------------------------------------------------------
D|--------------------------------------------------------------0--0--0--0--------------------------
A|--------------------------------------3--3--3--3--2--2--2--2--------------0--0--0--0--1--1--1--1--
E|--0--0--0--0--3--3--3--3--2--2--2--2--------------------------------------------------------------



E|----------------------------------------------------------------------------------------------------------
B|----------------------------------------------------------------------------------------------------------
G|----------------------------------------------------------------------8--8--8--8--------------------------
D|------------------------------------------10--10--10--10--9--9--9--9--------------7--7--7--7--8--8--8--8--
A|--7--7--7--7--10--10--10--10--9--9--9--9------------------------------------------------------------------
E|----------------------------------------------------------------------------------------------------------
http://www.guitartabcreator.com
Guitar Tab Creator is intended to store guitar tab created through the tool. It currently does not support in-line text editing. Any text you place in here will be lost. If you need to comment on your tab, please use the "Tab Notes" section located below.