7.jailbreak

(/) Slide Up  (\) Slide Down  (h) Hammer On  (p) Pull Off  (b) Bend (r) Release (v) Vibrato
E|-----------------------------------------------
B|-----------------------------------------------
G|-----------------------------------------------
D|-----------------------------------------------
A|--------0--3--6--6--5--5--------0--3--6--6--5--
E|--0--3--------------------0--3-----------------



E|--------------------------------------------------
B|--------------------------------------------------
G|--------------------------------------------------
D|-----------------------------------------5--------
A|--------0--3--6--6--5--5--------0--3--6-----6--5--
E|--0--3--------------------0--3--------------------



E|----------------------------------------
B|----------------------------------------
G|------------------------------0--8--11--
D|--------------------0--7--10------------
A|-----------0--6--9----------------------
E|--0--5--8-------------------------------



E|---------------------------------------
B|---------------------------------------
G|---------------------------------------
D|--------------------0--7--10--0--5--8--
A|-----------0--6--9---------------------
E|--0--5--8------------------------------



E|-----------------------
B|-----------------------
G|-----------------------
D|-----------------------
A|--0--3--6--0--2--5--0--
E|-----------------------
http://www.guitartabcreator.com
Guitar Tab Creator is intended to store guitar tab created through the tool. It currently does not support in-line text editing. Any text you place in here will be lost. If you need to comment on your tab, please use the "Tab Notes" section located below.