5.bastard

(/) Slide Up  (\) Slide Down  (h) Hammer On  (p) Pull Off  (b) Bend (r) Release (v) Vibrato

E|--------------------------------------------------
B|--------------------------------------------------
G|--0--2--0-----------0--2--0-----------------------
D|-----------0--2--0-----------0--2--0--------0--2--
A|--------------------------------------0--2--------
E|--------------------------------------------------



E|--------------------------------------------------
B|--------------------------------------------------
G|--0--2--0-----------0--2--0-----------------------
D|-----------0--2--0-----------0--2--0--------0--2--
A|--------------------------------------0--2--------
E|--------------------------------------------------



E|--------------------------------------------------
B|--------------------------------------------------
G|--0--2--0-----------0--2--0-----------------------
D|-----------0--2--0-----------0--2--0--------0--2--
A|--------------------------------------0--2--------
E|--------------------------------------------------



E|-----------------------
B|-----------------------
G|--0--2--0-----------2--
D|-----------0--2--0-----
A|-----------------------
E|-----------------------



E|--------------
B|--------------
G|--------------
D|--------------
A|--------------
E|--2--8--7--6--



E|---------------------------
B|---------------------------
G|---------------------------
D|---------------------------
A|--10--9--8--7--6--5--4-----
E|------------------------2--
http://www.guitartabcreator.com
Guitar Tab Creator is intended to store guitar tab created through the tool. It currently does not support in-line text editing. Any text you place in here will be lost. If you need to comment on your tab, please use the "Tab Notes" section located below.