4.bibo

(/) Slide Up  (\) Slide Down  (h) Hammer On  (p) Pull Off  (b) Bend (r) Release (v) Vibrato
E|--------------
B|--------------
G|--------------
D|--------------
A|--0--3--------
E|--------3--0--



E|--------------------------
B|--------------------------
G|--------------------------
D|--3--2--0-----------------
A|-----------3--2--0-----2--
E|--------------------3-----



E|--------------------------------------------
B|--------------------------------------------
G|--------------------------------------------
D|-----------0--1--0--0--2--0--0--1--0--------
A|--0--3--0-----------------------------3--0--
E|--------------------------------------------



E|--------------------------
B|--------------------------
G|--------------------------
D|--------------------2--3--
A|-----------1--3--4--------
E|--1--3--4-----------------



E|--------------------------------------------------------------------------------------------------
B|--------------------------------------------------------------------------------------------------
G|--------------------2--3--------------------7--8--------------------8--9--------------------7--8--
D|-----------1--3--4-----------------5--7--8-----------------6--8--9-----------------5--7--8--------
A|--1--3--4-----------------5--7--8-----------------6--8--9-----------------5--7--8-----------------
E|--------------------------------------------------------------------------------------------------



E|--------------------------
B|--------------------------
G|--8--7--------------------
D|--------8--7--------------
A|--------------8--7--------
E|--------------------8--7--



E|-----------------------------------------------------
B|-----------------------------------------------------
G|-----------------------------------------------------
D|-----------------------------------------------------
A|--------------------------------------------5--4--3--
E|--5--5--5--5--3--5--1--1--5--5--5--5--3--5-----------



E|--------------------------------------------
B|--------------------------------------------
G|--------------------------------------------
D|--------------------------------------------
A|--1--0--0--1--0--0--1--0--0--1--0--0--1--1--
E|--------------------------------------------



E|--------------------------------------------
B|--------------------------------------------
G|--------------------------------------------
D|--------------------------------------------
A|--4--0--0--4--0--0--4--0--0--4--0--0--4--4--
E|--------------------------------------------



E|--------------------------------------------
B|--------------------------------------------
G|--------------------------------------------
D|--------------------------------------------
A|--3--0--0--3--0--0--3--0--0--3--0--0--3--3--
E|--------------------------------------------



E|--------------------------------------------
B|--------------------------------------------
G|--------------------------------------------
D|--------------------------------------------
A|--2--0--0--2--0--0--2--0--0--2--0--0--2--2--
E|--------------------------------------------



E|--------------------------------------------------
B|--------------------------------------------------
G|-----------------------------5--7--5--------------
D|--3--2--0-----------------------------5--7--5-----
A|-----------3--2--0-----2--5-----------------------
E|--------------------3--------------------------5--
http://www.guitartabcreator.com
Guitar Tab Creator is intended to store guitar tab created through the tool. It currently does not support in-line text editing. Any text you place in here will be lost. If you need to comment on your tab, please use the "Tab Notes" section located below.