3.sandwich bandit

(/) Slide Up  (\) Slide Down  (h) Hammer On  (p) Pull Off  (b) Bend (r) Release (v) Vibrato
E|--------------
B|--------------
G|--------------
D|--------------
A|--------7-----
E|--0--8-----8--



E|---------------------------------------------------------
B|---------------------------------------------------------
G|---------------------------------------------------------
D|---------------------------------------------------------
A|---------------------------------------------------------
E|--16--15--14--13--12--11--10--9--8--7--6--5--4--3--2--1--



E|--------------------------------------------------------
B|--------------------------------------------------------
G|--------------------------------------------------------
D|--------------------------------------------------------
A|--------0--1--2--3--2--0--------------------7--7--7--7--
E|--0--3--------------------3--2--0--0--0--0--------------



E|--------------------------------------------------------
B|--------------------------------------------------------
G|--------------------------------------------------------
D|--------0--1--2--3--2--0--------------------7--7--7--7--
A|--0--3--------------------3--2--0--0--0--0--------------
E|--------------------------------------------------------



E|--------------------------------------------------------------------------
B|--------------------------------------------------------------------------
G|--------------------------------------------------------------------------
D|--------------------------------------------------------------------------
A|--------------------------------------------------------------------------
E|--2--2--2--2--0--2--3--3--3--3--0--3--2--2--2--2--0--2--3--3--3--3--0--3--



E|-----------------------------------------------------------
B|-----------------------------------------------------------
G|-----------------------------------------------------------
D|-----------------------------------------------------------
A|-----------------------------------------------------------
E|--2--2--2--2--0--2--3--3--3--3--0--3--2--2--2--0--3--0--2--



E|--------------
B|--------------
G|--------------
D|--------------
A|--0--7--8--7--
E|--------------



E|--------------------------
B|--------------------------
G|--10--9--7----------------
D|------------10--9--7------
A|----------------------10--
E|--------------------------
http://www.guitartabcreator.com
Guitar Tab Creator is intended to store guitar tab created through the tool. It currently does not support in-line text editing. Any text you place in here will be lost. If you need to comment on your tab, please use the "Tab Notes" section located below.