2.black pearl

(/) Slide Up  (\) Slide Down  (h) Hammer On  (p) Pull Off  (b) Bend (r) Release (v) Vibrato
E|--------------------------------------------------------
B|--------------------------------------------------------
G|--------------------------------------------------------
D|--------------------------------------------------------
A|--------------------------------------------------------
E|--0--6--9--8--0--6--9--8--0--9--8--6--0--6--9--8--9--8--



E|--------------------------------------------------
B|--------------------------------------------------
G|--------------------------------------------------
D|--------------------------------------------------
A|--------2-----------2-----------------------------
E|--0--3-----3--0--3-----3--1--1--1--1--1--1--1--1--



E|--------------------------------------------------
B|--------------------------------------------------
G|--------------------------------------------------
D|--------------------------------------------------
A|--------2-----------2-----------------------------
E|--0--3-----3--0--3-----3--1--1--1--1--4--4--3--3--



E|--------------------------------------------------------------------------------------------------
B|--------------------------------------------------------------------------------------------------
G|--------------------------------------------------------------------------------------------------
D|--------------------------------------------------------------------------------------------------
A|--------------------------------------------------------------------------------------------------
E|--8--8--7--7--6--6--5--5--8--8--7--7--6--6--5--5--8--8--7--7--6--6--5--5--8--7--6--5--8--7--6--5--



E|--------------------------
B|--------------------------
G|--------------------------
D|--------------------------
A|--------------------------
E|--8--7--6--5--4--3--2--1--



E|--------------------------------------------------
B|--------------------------------------------------
G|--------------------------7-----------------------
D|--------------------7--8-----8--7-----------------
A|-----------5--6--8-----------------8--7--5--7--8--
E|--0--3--6-----------------------------------------



E|--------------------------------------------------------
B|--------------------------------------------------------
G|----------------------9--10--9--------------------------
D|------------7--9--10------------10--9-------------------
A|--7--9--10-----------------------------10--9--7--9--10--
E|--------------------------------------------------------



E|-----------------------------------------------------------------------
B|-----------------------------------------------------------------------
G|-----------------------------------------------------------2-----------
D|--------------2--------------------------------------2--3-----3--2-----
A|--0--6--0--3-----3--0--6--6--6--6--6--0--6--0--0--3-----------------3--
E|-----------------------------------------------------------------------
http://www.guitartabcreator.com
Guitar Tab Creator is intended to store guitar tab created through the tool. It currently does not support in-line text editing. Any text you place in here will be lost. If you need to comment on your tab, please use the "Tab Notes" section located below.