1.walk in the park

(/) Slide Up  (\) Slide Down  (h) Hammer On  (p) Pull Off  (b) Bend (r) Release (v) Vibrato

E|--------------------------------------------------
B|--------------------------------------------------
G|--------------------------------------------------
D|--------------------------------------------------
A|--7--------5--3--------2--7--------5--3--0-----2--
E|-----7--5--------3--2--------7--5-----------3-----



E|----------------------------------------------------------
B|----------------------------------------------------------
G|----------------------------------------------------------
D|----------------------------------------------------------
A|--7-----8-----7-----10--10--10--7-----8-----7---------10--
E|-----7-----8-----7-----------------7-----8-----7--10------



E|--------------------------------------------------
B|--------------------------------------------------
G|--------------------------------------------------
D|--------------------------------------------------
A|--7-----8-----7-----10--7-----8-----7---------10--
E|-----7-----8-----7---------7-----8-----7--10------
http://www.guitartabcreator.com
Guitar Tab Creator is intended to store guitar tab created through the tool. It currently does not support in-line text editing. Any text you place in here will be lost. If you need to comment on your tab, please use the "Tab Notes" section located below.