11.pee alarm

(/) Slide Up  (\) Slide Down  (h) Hammer On  (p) Pull Off  (b) Bend (r) Release (v) Vibrato


E|--------------------------------------------------------------------------------
B|--------------------------------------------------------------------------------
G|--------------------------------------------------------------------------------
D|--------------------------------------------------------------------3--3--2--2--
A|--0--0--0--0--0--0--1--1--1--4--4--4--0--0--0--0--0--0--3--3--4--4--------------
E|--------------------------------------------------------------------------------



E|--------------------------------------------------------------------------------
B|--------------------------------------------------------------------------------
G|--------------------------------------------------------------------------------
D|--------------------------------------------------------3--3--2--2--0--0--------
A|--0--0--0--0--0--0--1--1--1--4--4--4--0--0--0--0--0--0--------------------3--3--
E|--------------------------------------------------------------------------------
http://www.guitartabcreator.com
Guitar Tab Creator is intended to store guitar tab created through the tool. It currently does not support in-line text editing. Any text you place in here will be lost. If you need to comment on your tab, please use the "Tab Notes" section located below.