10.redneck jazz

(/) Slide Up  (\) Slide Down  (h) Hammer On  (p) Pull Off  (b) Bend (r) Release (v) Vibrato

E|--------------------------------
B|--------------------------------
G|--7--6--5-----5-----------------
D|-----------7-----7--5-----------
A|-----------------------0--3--5--
E|--------------------------------



E|--------------------------------------------------------------
B|--------------------------------------------------------------
G|--7--6--5-----5-----------------------------------5--7--6--5--
D|-----------7-----7--5--------------------3--4--5--------------
A|-----------------------0--3--5--3--4--5-----------------------
E|--------------------------------------------------------------



E|-----------------------------------------------------
B|-----------------------------------------------------
G|-----------------------------------------------------
D|--7--7--7--7--5--5--5--5-----------------------------
A|--------------------------7--7--7--7--5--5--5--5-----
E|--------------------------------------------------5--
http://www.guitartabcreator.com
Guitar Tab Creator is intended to store guitar tab created through the tool. It currently does not support in-line text editing. Any text you place in here will be lost. If you need to comment on your tab, please use the "Tab Notes" section located below.