BGU 2012 Challenge George K

(/) Slide Up  (\) Slide Down  (h) Hammer On  (p) Pull Off  (b) Bend (r) Release (v) Vibrato

E|-------3--5b7--5b7--|--3--5--3--5--3-----|--------------|--5b7--3--------
B|--3h5---------------|-----------------5--|--3v----------|----------5--5--
G|--------------------|--------------------|--------------|----------------
D|--------------------|--------------------|--------------|----------------
A|--------------------|--------------------|--------------|----------------
E|--------------------|--------------------|--------------|----------------



E|--3--5--3--5--3--|--3-----3-----3--|--------------|--5b7--3----------
B|-----------------|-----5-----5-----|--3v----------|----------5--5----
G|-----------------|-----------------|--------------|------------------
D|-----------------|-----------------|--------------|------------------
A|-----------------|-----------------|--------------|------------------
E|-----------------|-----------------|--------------|------------------



E|--5--5--3--5--3--|--3--5--3--5--3-----|-------5p3-----3--|---------------
B|-----------------|-----------------5--|--3---------5-----|--5p3--5p3-----
G|-----------------|--------------------|------------------|------------4--
D|-----------------|--------------------|------------------|---------------
A|-----------------|--------------------|------------------|---------------
E|-----------------|--------------------|------------------|---------------
http://www.guitartabcreator.com
Guitar Tab Creator is intended to store guitar tab created through the tool. It currently does not support in-line text editing. Any text you place in here will be lost. If you need to comment on your tab, please use the "Tab Notes" section located below.