tab song 1

(/) Slide Up  (\) Slide Down  (h) Hammer On  (p) Pull Off  (b) Bend (r) Release (v) Vibrato

E|-----------------------------------------------------------------
B|-----------------------------------------------------------------
G|-----------------------------------------------------------------
D|-----6\5---2---3-----3/5-----5/6-----6\5---2---3---6---5-----2/3-
A|-----8\7---4---5-----4/7-----7/8-----8\7---4---5---8---7-----4/5-
E|-000-----0---0---000-----000-----000-----0---0---0---0---000-----

E|---------------------------------
B|---------------------------------
G|---------------------------------
D|-3r------------------------------
A|-0r------------------------------
E|-0r------------------------------



E|---------------------------------
B|---------------------------------
G|---------------------------------
D|-3-------5---6---9-------8-------
A|-0-------2---3---6-------5-------
E|-0-------2---3---6-------5-------



E|-----------------------------------------------------------------
B|-----------------------------------------------------------------
G|-(octaves)-------------------------------------------------------
D|-----------------------------------------------------------------
A|-888888887777444455555557777777788888888777744448888888877777777-
E|-000000000000000000000000000000088888888888888885555555555555555-



E|-----------------------------------------------------------------
B|-----------------------------------------------------------------
G|-----------------------------------------------------------------
D|-----6\5---2---3-----3/5-----5/6-----6\5---2---3---6---5-----2/3-
A|-----8\7---4---5-----4/7-----7/8-----8\7---4---5---8---7-----4/5-
E|-000-----0---0---000-----000-----000-----0---0---0---0---000-----


E|-----------------------------------------------------------------
B|-----------------------------------------------------------------
G|---------------------------------------------------5-------------
D|-----7-----5-----8-----7-----5/7-----7-----5---7---7---7---5/7\5-
A|-----8-----7-----10----8-----7/8-----8-----7---8-------8---7/8\7-
E|-888---8-8---8-8---8-8---8-8-----555---5-5---5---5---5---5-------



E|--
B|--
G|--
D|--
A|--
E|--



E|--
B|--
G|--
D|--
A|--
E|--



E|--
B|--
G|--
D|--
A|--
E|--



E|--
B|--
G|--
D|--
A|--
E|--
http://www.guitartabcreator.com
Guitar Tab Creator is intended to store guitar tab created through the tool. It currently does not support in-line text editing. Any text you place in here will be lost. If you need to comment on your tab, please use the "Tab Notes" section located below.