To Whom It May Concern

(/) Slide Up  (\) Slide Down  (h) Hammer On  (p) Pull Off  (b) Bend (r) Release (v) Vibrato

E|------------0-----2-----0-----------0-----------0-----------0--------
B|--0h5-------------------------2-----------0-----------0--------------
G|---------------------------------------------------------------------
D|---------4-----4-----4-----4-----4-----4-----4-----4-----4-----4-----
A|--5---------------5-----------5-----------5--------------------------
E|---------------------------------------------------------------------



E|----------0-----2-----0-----------0-----0-----0-----------0-----------0-----
B|--0h5-----------------------2-----------------------0-----------0-----------
G|----------------------------------------------------------------------------
D|-------4-----4-----4-----4-----4-----4-----4-----4-----4-----4-----4-----4--
A|--5-------------5-----------5-----------5-----------------------------------
E|----------------------------------------------------------------------------



E|----------0-----2-----0-----------0-----------0-----------0-----
B|--0h5-----------------------2-----------0-----------0-----------
G|----------------------------------------------------------------
D|-------4-----4-----4-----4-----4-----4-----4-----4-----4-----4--
A|--5-------------5-----------5-----------5-----------------------
E|----------------------------------------------------------------



E|----------0-----2-----0-----------0-----------0-----------0-----------0-----------0-----------0-----
B|--0h5-----------------------2-----------0-----------0-----------------------0-----------------------
G|----------------------------------------------------------------0-----------------------0-----------
D|-------4-----4-----4-----4-----4-----4-----4-----4--------------------------------------------------
A|--5-------------5-----------5-----------5--------------2-----2-----2-----2-----2-----2-----2-----2--
E|----------------------------------------------------2-----------2-----------2-----------2-----------



E|--
B|--
G|--
D|--
A|--
E|--
http://www.guitartabcreator.com
Guitar Tab Creator is intended to store guitar tab created through the tool. It currently does not support in-line text editing. Any text you place in here will be lost. If you need to comment on your tab, please use the "Tab Notes" section located below.