9

(/) Slide Up  (\) Slide Down  (h) Hammer On  (p) Pull Off  (b) Bend (r) Release (v) Vibrato
E|--------------------------------------------------------------------------------------
B|--------------------------------------------------------------------------------------
G|--------------------------------------------------------------------------------------
D|--8h9--11--11--11--9--8-------5h6--8--8--8--5--5-------3h4--6--6--6--4--3-----3h4--6--
A|-------------------------9------------------------6------------------------4----------
E|--------------------------------------------------------------------------------------



E|------------------------------------------------------------------------------------------
B|------------------------------------------------------------------------------------------
G|------------------------------------------------------------------------------------------
D|--8h9--11--11--11--9--8-------5h6--8--8--8--5--5-------3h4--6--6--6--4--3-----3h4--6h7p6--
A|-------------------------9------------------------6------------------------4--------------
E|------------------------------------------------------------------------------------------



E|-----------0--0-0-0-0---------------------------------------------0-0-0-0-0-0-0-
B|---7-7-4-4-0--0-0-0-0----10----------------------------10---------0-0-0-0-0-0-0-
G|-6---------0--0-0-0-0--9-----------------------------9------------0-0-0-0-0---0-
D|-----------2--2-2-2-2-------10-9-7\2-2-2-2-2--2-2-2-------10-9-7--2-2-2-2-2-2-2-
A|-----------2--2-2-2-2---------------------------------------------2-2-2-2-2-2-2-
E|--------------------------------------------------------------------------------
http://www.guitartabcreator.com
Guitar Tab Creator is intended to store guitar tab created through the tool. It currently does not support in-line text editing. Any text you place in here will be lost. If you need to comment on your tab, please use the "Tab Notes" section located below.