8

(/) Slide Up  (\) Slide Down  (h) Hammer On  (p) Pull Off  (b) Bend (r) Release (v) Vibrato

E|------------------7-7-7-6-4-----------2-2-2-2-2-2-2-2--2-2-2-2-2-2-2-2-7-7-2-2-7-7-2-2-
B|-----9-11-9-7-6-4-----------6-6-6-7-4-4-4-4-4-4-4-4-4--4-4-4-4-4-4-4-4-9-9-4-4-9-9-4-4-
G|-8-8-----------------------------------------------------------------------------------
D|---------------------------------------------------------------------------------------
A|---------------------------------------------------------------------------------------
E|---------------------------------------------------------------------------------------



E|---------------------------------------------------------------------------
B|----------11-12-11--------------------11-12-11--------------------11-12-11-
G|-------12----------12--------------12----------12--------------12----------
D|-11-13----------------11/13--11-13----------------11/13--11-13-------------
A|---------------------------------------------------------------------------
E|---------------------------------------------------------------------------



E|-2-2-2-2--2---2-2--2--7-7-7-
B|-4-4-4-4--4---4-4--4--9-9-9-
G|-3-3-3-3--3---3-3--3--8-8-8-
D|----------------------------
A|----------------------------
E|----------------------------



E|------------------------------------
B|--------7--6------------------------
G|--------------6--8----11-----10-----
D|--6--8--------------------9------9--
A|------------------------------------
E|------------------------------------



E|--2--2--2--2--2----2--2----2----2--2--2--2------7--7--7--7--7----7--7----7------7--7--7--7--
B|--4--4--4--4--4----4--4----4----4--4--4--4------9--9--9--9--9----9--9----9------9--9--9--9--
G|--3--3--3--3--3----3--3----3----3--3--3--3------8--8--8--8--8----8--8----8------8--8--8--8--
D|--------------------------------------------------------------------------------------------
A|--------------------------------------------------------------------------------------------
E|--------------------------------------------------------------------------------------------



E|--2--2--7--2--2--7--2--2--2--2--2--2--2--2--2----7----2----2--2----7----2--2--2--2--
B|--4--4--9--4--4--9--4--4--4--4--4--4--4--4--4----9----4----4--4----9----4--4--4--4--
G|--3--3--8--3--3--8--3--3--3--3--3--3--3--3--3----8----3----3--3----8----3--3--3--3--
D|------------------------------------------------------------------------------------
A|------------------------------------------------------------------------------------
E|------------------------------------------------------------------------------------



E|--7----2----2--2------7--7--7--7--------7--
B|--9----4----4--4------9--9--9--9-----9-----
G|--8----3----3--3------8--8--8--8--8--------
D|-------------------------------------------
A|-------------------------------------------
E|-------------------------------------------
http://www.guitartabcreator.com
Guitar Tab Creator is intended to store guitar tab created through the tool. It currently does not support in-line text editing. Any text you place in here will be lost. If you need to comment on your tab, please use the "Tab Notes" section located below.