5

(/) Slide Up  (\) Slide Down  (h) Hammer On  (p) Pull Off  (b) Bend (r) Release (v) Vibrato
E|---------------------------------------0-----0------------------------------------0-----0--
B|---------------------------------------0-----0------------------------------------0-----0--
G|---------------------------------------0-----0------------------------------------0-----0--
D|---------------------------------------0-----0------------------------------------0-----0--
A|---------------------------------------0-----0------------------------------------0-----0--
E|--10--10--10--10--10\1--1--1--1-----7-----7-----10--10--10--10--10\1--1--1--1--7-----7-----



E|--------------------------------------------------------------------------
B|--------------------------------------------------------------------------
G|--------------------------------------------------------------------------
D|--------------------------------------------------------------------------
A|--6--6--6--7----7--4----4-----4--7--7--7--4----10--10--10--9--9--9--8-----
E|---------------------------5----------------------------------------------
http://www.guitartabcreator.com
Guitar Tab Creator is intended to store guitar tab created through the tool. It currently does not support in-line text editing. Any text you place in here will be lost. If you need to comment on your tab, please use the "Tab Notes" section located below.