3

(/) Slide Up  (\) Slide Down  (h) Hammer On  (p) Pull Off  (b) Bend (r) Release (v) Vibrato

E|------------13--15------15--13-------------------------18--17--15--------------
B|--------------------17----------10--10h11--11--11--11--------------18--17--15--
G|--9--10--9---------------------------------------------------------------------
D|-------------------------------------------------------------------------------
A|-------------------------------------------------------------------------------
E|-------------------------------------------------------------------------------



E|------------------------------------------------------------
B|------------------------------------------------------------
G|------------------------------------------------------------
D|-----------------10--10--12--12--1-----1-----1-----1--------
A|--10h12--12--12---------------------2-----3-----2-----2-----
E|------------------------------------------------------------



E|--------------9--9--11--------------7--6--7-----------------9--9--11--------------7--6--7--10--
B|---------------------------------------------7-------------------------------------------------
G|--9--9--9--8------------7--7--7--6--------------9--9--9--8------------7--7--7--6---------------
D|-----------------------------------------------------------------------------------------------
A|-----------------------------------------------------------------------------------------------
E|-----------------------------------------------------------------------------------------------
http://www.guitartabcreator.com
Guitar Tab Creator is intended to store guitar tab created through the tool. It currently does not support in-line text editing. Any text you place in here will be lost. If you need to comment on your tab, please use the "Tab Notes" section located below.