14

(/) Slide Up  (\) Slide Down  (h) Hammer On  (p) Pull Off  (b) Bend (r) Release (v) Vibrato


E|--1--------3----------------------------------------------------
B|----------------------------------------------------------------
G|--------2-------------2----------1----------2----------1--------
D|-----2-----------3----------3----------3----------3----------3--
A|----------------------------------------------------------------
E|--------------2----------2----------2----------2----------2-----



E|-------------------------------------------------------------
B|-------------------------------------------------------------
G|-------------------------------------------------------------
D|--6--6--7--7--7--4--4--4------3--3--3--4--4--4/7\3--3--3--3--
A|-------------------------------------------------------------
E|-------------------------------------------------------------



E|------------------------
B|------------------------
G|--2--2--2----2--3--2----
D|------------------------
A|------------------------
E|------------------------
http://www.guitartabcreator.com
Guitar Tab Creator is intended to store guitar tab created through the tool. It currently does not support in-line text editing. Any text you place in here will be lost. If you need to comment on your tab, please use the "Tab Notes" section located below.