12

(/) Slide Up  (\) Slide Down  (h) Hammer On  (p) Pull Off  (b) Bend (r) Release (v) Vibrato


E|--4--4--4--3--3--3--2--2--2--1--1--1--
B|--------------------------------------
G|--------------------------------------
D|--------------------------------------
A|--------------------------------------
E|--------------------------------------



E|--10----10--8--7-----
B|------------------8--
G|---------------------
D|---------------------
A|---------------------
E|---------------------



E|--15----15--13------13--
B|----------------15------
G|------------------------
D|------------------------
A|------------------------
E|------------------------



E|------------------
B|-------------6h7--
G|----------8-------
D|------------------
A|--6--6------------
E|------------------
http://www.guitartabcreator.com
Guitar Tab Creator is intended to store guitar tab created through the tool. It currently does not support in-line text editing. Any text you place in here will be lost. If you need to comment on your tab, please use the "Tab Notes" section located below.