11

(/) Slide Up  (\) Slide Down  (h) Hammer On  (p) Pull Off  (b) Bend (r) Release (v) Vibrato

E|-----------------------------------------------------------------
B|--------------------------------9-----------------------------6--
G|--------------------10--10--10-----------------------7--7--7-----
D|-----------8--8--8--------------------------5--5--5--------------
A|--9--9--9--------------------------6--6--6-----------------------
E|-----------------------------------------------------------------



E|---------------------------------------------------------
B|---------------------------------------------------------
G|---------------10---------------6---------------3--------
D|---------------------------------------------------------
A|--8----------------4---------------1---------------------
E|---------------------------------------------------------



E|---------------------------------------------------
B|---------------------------------------------------
G|-----10-----10-----10------------8-----8-----8-----
D|---------------------------------------------------
A|--9------9------9------9------6-----6-----6-----6--
E|---------------------------------------------------
http://www.guitartabcreator.com
Guitar Tab Creator is intended to store guitar tab created through the tool. It currently does not support in-line text editing. Any text you place in here will be lost. If you need to comment on your tab, please use the "Tab Notes" section located below.