10

(/) Slide Up  (\) Slide Down  (h) Hammer On  (p) Pull Off  (b) Bend (r) Release (v) Vibrato

E|-----8-----9-----8-----9-------------------------------
B|--8-----8-----8-----8-----------14--14h16--14--13--14--
G|----------------------------13-------------------------
D|-------------------------------------------------------
A|-------------------------------------------------------
E|-------------------------------------------------------



E|-------------------------------------------------------------2h3/6--6--6--6--5h6p5--------
B|--11--13h14-------------6-----------------------------------------------------------8--7--
G|-------------10------------6--------------------------------------------------------------
D|-----------------11-----------6--4----2h3/6--6--6--6--3h4p3-------------------------------
A|---------------------9--------------------------------------------------------------------
E|------------------------------------------------------------------------------------------



E|-------------------9-----------------------------8-----9-----8-----9--9--
B|--7h8--10--10--10-----10--8-------------------8-----8-----8-----8--------
G|-----------------------------7h8p7--5--4---------------------------------
D|-------------------------------------------------------------------------
A|-------------------------------------------------------------------------
E|-------------------------------------------------------------------------
http://www.guitartabcreator.com
Guitar Tab Creator is intended to store guitar tab created through the tool. It currently does not support in-line text editing. Any text you place in here will be lost. If you need to comment on your tab, please use the "Tab Notes" section located below.