1

(/) Slide Up  (\) Slide Down  (h) Hammer On  (p) Pull Off  (b) Bend (r) Release (v) Vibrato


E|--------------9--9--11--------------7--6--7-----------------9--9--11--------------7--6--7--10-----
B|---------------------------------------------7----------------------------------------------------
G|--9--9--9--8------------7--7--7--6--------------9--9--9--8------------7--7--7--6------------------
D|--------------------------------------------------------------------------------------------------
A|--------------------------------------------------------------------------------------------------
E|--------------------------------------------------------------------------------------------------



E|--------------------------
B|--------5--4--------------
G|--5--4--------------6--5--
D|--------------6--5--------
A|--------------------------
E|--------------------------
http://www.guitartabcreator.com
Guitar Tab Creator is intended to store guitar tab created through the tool. It currently does not support in-line text editing. Any text you place in here will be lost. If you need to comment on your tab, please use the "Tab Notes" section located below.