Wind(unfinished)

(/) Slide Up  (\) Slide Down  (h) Hammer On  (p) Pull Off  (b) Bend (r) Release (v) Vibrato
E|-----------0-----------------0--------|-----------0-----------------0--------|--
B|--------3-----3-----------3-----3-----|--------3-----3-----------3-----3-----|--
G|-----4-----------4-----4-----------4--|-----5-----------5-----5-----------5--|--
D|--5-----------------5-----------------|--5-----------------5-----------------|--
A|--------------------------------------|--------------------------------------|--
E|--------------------------------------|--------------------------------------|--



E|-----------0-----------------0--------|-----------0-----------------0--------|--
B|--------3-----3-----------3-----3-----|--------3-----3-----------3-----3-----|--
G|-----4-----------4-----4-----------4--|-----5-----------5-----5-----------5--|--
D|--5-----------------5-----------------|--5-----------------5-----------------|--
A|--------------------------------------|--------------------------------------|--
E|--------------------------------------|--------------------------------------|--



E|-----------0-----------------0--------|-----------0-----------------0--------|--
B|--------3-----3-----------3-----3-----|--------3-----3-----------3-----3-----|--
G|-----4-----------4-----4-----------4--|-----5-----------5-----5-----------5--|--
D|--5-----------------5-----------------|--5-----------------5-----------------|--
A|--------------------------------------|--------------------------------------|--
E|--------------------------------------|--------------------------------------|--



E|-----------0-----------------0--------|-----------3-----------------3--------|--
B|--------3-----3-----------3-----3-----|--------3-----3-----------3-----3-----|--
G|-----4-----------4-----4-----------4--|-----5-----------5-----5-----------5--|--
D|--5-----------------5-----------------|--5-----------------5-----------------|--
A|--------------------------------------|--------------------------------------|--
E|--------------------------------------|--------------------------------------|--



E|-----------0-----------------0--------|-----------3-----------------3--------|--
B|--------3-----3-----------3-----3-----|--------3-----3-----------3-----3-----|--
G|-----4-----------4-----4-----------4--|-----5-----------5-----5-----------5--|--
D|--5-----------------5-----------------|--5-----------------5-----------------|--
A|--------------------------------------|--------------------------------------|--
E|--------------------------------------|--------------------------------------|--



E|-----------3-----------------3--------|-----------3-----------------3--------|--
B|--------3-----3-----------3-----3-----|--------3-----3-----------3-----3-----|--
G|-----4-----------4-----4-----------4--|-----5-----------5-----5-----------5--|--
D|--5-----------------5-----------------|--5-----------------5-----------------|--
A|--------------------------------------|--------------------------------------|--
E|--------------------------------------|--------------------------------------|--



E|-----------3-----------------3--------|-----------5-----------------3--------|--
B|--------3-----3-----------3-----3-----|--------3-----3-----------3-----3-----|--
G|-----4-----------4-----4-----------4--|-----4-----------4-----4-----------4--|--
D|--5-----------------5-----------------|--5-----------------5-----------------|--
A|--------------------------------------|--------------------------------------|--
E|--------------------------------------|--------------------------------------|--



E|-----------3-----------------3--------
B|--------3-----3-----------3-----3-----
G|-----4-----------4-----4-----------4--
D|--5-----------------5-----------------
A|--------------------------------------
E|--------------------------------------



E|-----------3-----------------3--------|-----------5-----------------3--------
B|--------3-----3-----------3-----3-----|--------3-----3-----------3-----3-----
G|-----4-----------4-----4-----------4--|-----4-----------4-----4-----------4--
D|--5-----------------5-----------------|--5-----------------5-----------------
A|--------------------------------------|--------------------------------------
E|--------------------------------------|--------------------------------------



E|-----------3-----------------3--------|-----------5-----------------3--------
B|--------3-----3-----------3-----3-----|--------3-----3-----------3-----3-----
G|-----5-----------5-----5-----------5--|-----5-----------5-----5-----------5--
D|--5-----------------5-----------------|--5-----------------5-----------------
A|--------------------------------------|--------------------------------------
E|--------------------------------------|--------------------------------------



E|-----------0-----------------0--------|-----------7-----------------0-----|--
B|--------7-----7-----------7-----7-----|--------5-----5-----------7-----7--|--
G|-----0-----------0-----0-----------0--|-----0-----------0-----0-----------|--
D|--------------------------------------|-----------------------------------|--
A|--7-----------------7-----------------|--7-----------------7--------------|--
E|--------------------------------------|-----------------------------------|--



E|-----------0-----------------0--------|-----------5-----------------0-----|--
B|--------5-----5-----------5-----5-----|--------3-----3-----------5-----5--|--
G|-----0-----------0-----0-----------0--|-----0-----------0-----0-----------|--
D|--------------------------------------|-----------------------------------|--
A|--5-----------------5-----------------|--5-----------------5--------------|--
E|--------------------------------------|-----------------------------------|--



E|-----------0-----------------0--------|-----------3-----------------0--------|--
B|--------3-----3-----------3-----3-----|--------1-----1-----------3-----3-----|--
G|-----0-----------0-----0-----------0--|-----0-----------0-----0-----------0--|--
D|--------------------------------------|--------------------------------------|--
A|--3-----------------3-----------------|--3-----------------3-----------------|--
E|--------------------------------------|--------------------------------------|--



E|-----------0-----------------0--------|-----------5-----------------0--------
B|--------5-----5-----------5-----5-----|--------3-----3-----------5-----5-----
G|-----0-----------0-----0-----------0--|-----0-----------0-----0-----------0--
D|--------------------------------------|--------------------------------------
A|--5-----------------5-----------------|--5-----------------5-----------------
E|--------------------------------------|--------------------------------------



E|-----------0-----------------0--------|-----------0-----------------0--------
B|--------3-----3-----------3-----3-----|--------3-----3-----------3-----3-----
G|-----0-----------0-----0-----------0--|-----0-----------0-----0-----------0--
D|--5-----------------5-----------------|--4-----------------4-----------------
A|--------------------------------------|--------------------------------------
E|--------------------------------------|--------------------------------------



E|-----------0-----------------0--------|-----------0-----------------0--------|--
B|--------3-----3-----------3-----3-----|--------3-----3-----------3-----3-----|--
G|-----0-----------0-----0-----------0--|-----0-----------0-----0-----------0--|--
D|--2-----------------2-----------------|--------------------------------------|--
A|--------------------------------------|--5-----------------5-----------------|--
E|--------------------------------------|--------------------------------------|--
http://www.guitartabcreator.com
Guitar Tab Creator is intended to store guitar tab created through the tool. It currently does not support in-line text editing. Any text you place in here will be lost. If you need to comment on your tab, please use the "Tab Notes" section located below.