Hate Once

(/) Slide Up  (\) Slide Down  (h) Hammer On  (p) Pull Off  (b) Bend (r) Release (v) Vibrato
E|--------------------------------------------------
B|--------------------------------------------------
G|--------------------------------------------2-----
D|--------2-----------3-----------2--------2-----2--
A|-----2-----2-----3-----3-----2-----2--0-----------
E|--0-----------0-----------0-----------------------



E|----------------------------------------------------
B|----------------------------------------------------
G|----------------------------------------------------
D|--7--7--7--7--9--9--11--11--7--7--7--7--5--5--3--3--
A|--7--7--7--7--9--9--11--11--7--7--7--7--5--5--3--3--
E|--5--5--5--5--7--7--9---9---5--5--5--5--3--3--1--1--



E|--------------------------------------------------
B|--------------------------------------------------
G|--------------------------------------------2-----
D|--------2-----------3-----------4--------2-----2--
A|-----2-----2-----3-----3-----4-----4--------------
E|--0-----------0-----------0-----------0-----------



E|--------------------------------------------
B|--------------------------------------------
G|--7--7--7--7--9--9--11--11------------------
D|--7--7--7--7--9--9--11--11----11----9----7--
A|--5--5--5--5--7--7--9---9-----11----9----7--
E|------------------------------9-----7----5--



E|----------------------------------------------------------------------------2--------2-----2--0--0--0--0--
B|----------------------------------------------------------------2--------2-----2--0-----0-----------------
G|----------------------------------------------------2--------2-----2--0-----------------------------------
D|----------------------------2-----------3--------2-----2--0-----------------------------------------------
A|--2----2-----2-----2-----2-----2-----3-----3--------------------------------------------------------------
E|--0----0--0--0--0--0--0-----------0-----------0-----------------------------------------------------------
http://www.guitartabcreator.com
Guitar Tab Creator is intended to store guitar tab created through the tool. It currently does not support in-line text editing. Any text you place in here will be lost. If you need to comment on your tab, please use the "Tab Notes" section located below.