usui takumi

(/) Slide Up  (\) Slide Down  (h) Hammer On  (p) Pull Off  (b) Bend (r) Release (v) Vibrato

E|----------------------------------------------------
B|--------------------7-------------------------7-----
G|--5--7--7h9--9p7h9-----5----5--7--7h9--9p7h9-----5--
D|----------------------------------------------------
A|----------------------------------------------------
E|----------------------------------------------------



E|--------------------------------------------
B|------------7-------------------------7--7--
G|--9--9p7h9-----5----5--7--7h9--9p7h9--------
D|--------------------------------------------
A|--------------------------------------------
E|--------------------------------------------



E|-----------------------------------------
B|-----------------------------------------
G|--7--7--7--7--7--5--4--5--4--2--0--2--0--
D|-----------------------------------------
A|-----------------------------------------
E|-----------------------------------------



E|------------------------------
B|------------------------------
G|--7--7--7--7--7--5--4--5--4v--
D|------------------------------
A|------------------------------
E|------------------------------



E|----------------------------------------------------------------------
B|----------------------------------------------------------------------
G|---------0-----0-----0--2----0-----0-----0--2----0-----0-----0--2--2--
D|--0h2h4-----4-----4-------------4-----4-------------4-----4-----------
A|----------------------------------------------------------------------
E|----------------------------------------------------------------------



E|-----------0----------------------
B|--------0------------------3------
G|-----0------------------0---------
D|---------------------0------------
A|--3-------------------------------
E|------------------3---------------
http://www.guitartabcreator.com
Guitar Tab Creator is intended to store guitar tab created through the tool. It currently does not support in-line text editing. Any text you place in here will be lost. If you need to comment on your tab, please use the "Tab Notes" section located below.