someone puente

(/) Slide Up  (\) Slide Down  (h) Hammer On  (p) Pull Off  (b) Bend (r) Release (v) Vibrato

E|-----------------------------------------------------------------------------------------
B|-----------------------------------------------------------------------------------------
G|--------------------------------------------------------------------------5--4-----------
D|--------------------------------------------------------4--6--7--4--6--7--------7--5--5--
A|-----------------------------------------------------------------------------------------
E|--5--5--0--2--5--5--5--2--0--5--5--0--2--5--5--5--2--0-----------------------------------



E|--------------------------------------------------------------------------------------------------
B|--------------------------------------------------------------------------------------------------
G|--------------------7-----9-----10------12--------------------------------------------------------
D|--7--5--------------------------------------------12--11--12--11--9--11--------12--11--12--11-----
A|--------8--7--5--5-----7-----8------10------12\0-------------------------12\0---------------------
E|--------------------------------------------------------------------------------------------------



E|-----------------------------------------------------------------------------
B|-----------------------------------------------------------------------------
G|-----------------------------------------------------------------------------
D|--9--11------------------11--------------------------11----------------------
A|--------------11--9--11------11--9--------11--9--11------11--9--10--9--7--5--
E|---------9\0------------------------9--9-------------------------------------



E|-----------------
B|-----------------
G|-----------------
D|-----------------
A|--------------0--
E|--3--1--0--4-----
http://www.guitartabcreator.com
Guitar Tab Creator is intended to store guitar tab created through the tool. It currently does not support in-line text editing. Any text you place in here will be lost. If you need to comment on your tab, please use the "Tab Notes" section located below.