Waltz Ting

(/) Slide Up  (\) Slide Down  (h) Hammer On  (p) Pull Off  (b) Bend (r) Release (v) Vibrato


E|-----------------------------------------------------------------------------------
B|--11--11h13p11--10--10h11p10--8--8h10p8--6--6h8p6--3--3h6p3--1--1h3p1-----1h3p1/6--
G|-----------------------------------------------------------------------3-----------
D|-----------------------------------------------------------------------------------
A|-----------------------------------------------------------------------------------
E|-----------------------------------------------------------------------------------



E|----------------------------------------------
B|--6/15--18--16--15--16--15--13--15--13--8--6--
G|----------------------------------------------
D|----------------------------------------------
A|----------------------------------------------
E|----------------------------------------------



E|-------------------------------------------------------------------------------------------------------
B|--6/15--15--15h16b15--15--15--13--15--13--11--13--11--8--11--8--6--6--6--8--8--6--3--6--3--1--3--1-----
G|----------------------------------------------------------------------------------------------------3--
D|-------------------------------------------------------------------------------------------------------
A|-------------------------------------------------------------------------------------------------------
E|-------------------------------------------------------------------------------------------------------
http://www.guitartabcreator.com
Guitar Tab Creator is intended to store guitar tab created through the tool. It currently does not support in-line text editing. Any text you place in here will be lost. If you need to comment on your tab, please use the "Tab Notes" section located below.