Randy Rhoads RR

(/) Slide Up  (\) Slide Down  (h) Hammer On  (p) Pull Off  (b) Bend (r) Release (v) Vibrato
E|--------------------------------------------------|-------------------------------
B|--------------------------------------------------|-------------------------------
G|--2b4r2p0-----------------------------------------|-------------------------------
D|-----------2p0h2p0h2p0h2p0h2p0--------------------|-------------------------------
A|--------------------------------2p0h2p0h2p0-------|-------------------------------
E|---------------------------------------------3p0--|--3----3--3--3--3--3--3--3--3--



E|-----------------------------------------------------------------------------------------------
B|-----------------------------------------------------------------------------------------------
G|--------------------2--------------------------------------------3-----------------------------
D|--------------------2--------------------------------------------3-----------------------------
A|-----------------------------------------------------------------------------------------------
E|--1--1--2--2--3--3-----3--3--3--3--3--3--3--3--1--1--2--2--3--3-----3--3--3--3--3--3--3--3-----



E|--------------------------------------------------------|----------------------------------------
B|--------------------------------------------------------|----------------------------------------
G|--------------------2--------------3--------------2--3--|----------------------------------------
D|--------------------2--------------3--------------2--3--|----------------------------------------
A|--------------------------------------------------------|--4p1h3p1-------3p1-------4p1h3p1-------
E|--1--1--2--2--3--3-----3--3--3--3-----3--3--3--3--------|-----------3p1-------3p1-----------3p---



E|----------------------------------------9p6h8p6-------8p6-------9p6h8p6----
B|-------------------------------------------------8p6-------8p6-----------8p
G|--6p3h5p3-------5p3-------6p3h5p5------------------------------------------
D|-----------5p3-------5p3-----------5p3-------------------------------------
A|---------------------------------------------------------------------------
E|---------------------------------------------------------------------------



E|-----6------------------------------3-------------------------------------------------------------
B|--6-----8p6--8p6----------------------------------------------------------------------------------
G|------------------7--8--7p6--3p5p6-----5p3-----3--------------------------------------------------
D|--------------------------------------------5-----5p3-----3---------------------------------------
A|-------------------------------------------------------5-----5p4p3-----3----------------1---------
E|--------------------------------------------------------------------6-----6----3--1--3-----3--1--



E|--------------------------------------------------------------------------------------------
B|--------------------------------------------------------------------------------------------
G|--------------------------------------------------------------------------------------------
D|--------------------------------------------------------------------------------------------
A|-----------1-----------------1-----------------1-----------------1-----------------1--------
E|--3--1--3-----3--1--3--1--3-----3--1--3--1--3-----3--1--3--1--3-----3--1--3--1--3-----3--1--



E|---------------------------------------------------------6--8--9p6-----10p7-----11p8------
B|-------------------------------------------------6--6/8-------------8--------9--------10--
G|--------------------------------------------5/7-------------------------------------------
D|-----------------------------3-----3--5--3------------------------------------------------
A|-----------1--------5--3--5-----5---------------------------------------------------------
E|--3--1--3-----3--1------------------------------------------------------------------------



E|--12p9------13p10------10--15p10--17p10---------17p10---------17p10---------17p10---------
B|--------11---------12--------------------14p10---------14p10---------14p10---------14p10--
G|------------------------------------------------------------------------------------------
D|------------------------------------------------------------------------------------------
A|------------------------------------------------------------------------------------------
E|------------------------------------------------------------------------------------------



E|--15p10---------15p10---------15p10---------15p10---------14p10---------14p10---------14p10---------
B|---------14p10---------14p10---------14p10---------14p10---------14p10---------14p10---------14p10--
G|----------------------------------------------------------------------------------------------------
D|----------------------------------------------------------------------------------------------------
A|----------------------------------------------------------------------------------------------------
E|----------------------------------------------------------------------------------------------------




E|--15p10---------14p10---------14p10---------14p10---------14p10---------10--11--13--10--11--
B|---------14p10---------14p10---------14p10---------14p10---------14p10----------------------
G|--------------------------------------------------------------------------------------------
D|--------------------------------------------------------------------------------------------
A|--------------------------------------------------------------------------------------------
E|--------------------------------------------------------------------------------------------



E|------10---------------------------------------------------------------------------
B|--13------13p11p10h11p10------10---------------------------------------------------
G|--------------------------12------12p11--8p7h8p7------7----------------------------
D|--------------------------------------------------10-----10p8--7h8p7------7--------
A|----------------------------------------------------------------------10-----10p8--
E|-----------------------------------------------------------------------------------
http://www.guitartabcreator.com
Guitar Tab Creator is intended to store guitar tab created through the tool. It currently does not support in-line text editing. Any text you place in here will be lost. If you need to comment on your tab, please use the "Tab Notes" section located below.