Demo Song 1 (Before And After)

(/) Slide Up  (\) Slide Down  (h) Hammer On  (p) Pull Off  (b) Bend (r) Release (v) Vibrato

E|--------------------------------------------------------
B|--------------------------------------------------------
G|--7--7--7--7--7-----------------------------------------
D|--7--7--7--7--7--7--7--6--5--5--5--5--7--6--5--5--5--5--
A|--5--5--5--5--5--7--7--6--5--5--5--5--7--6--5--5--5--5--
E|-----------------5--5--4--3--3--3--3--5--4--3--3--3--3--



E|-------------------------------------------------------
B|-------------------------------------------------------
G|-----------------------------------------------7----7--
D|-----------------7-----7-----7-----7--7--5--5--7----7--
A|-----7-----5--5-----5-----5-----5--7--7--5--5--5----5--
E|--5-----3--------------------------5--5--3--3----------



E|--17--15---------------------------------------------------------------------
B|----------17--16--15--13-----------------------------------------------------
G|--------------------------14--12----------------------------------12b14--12--
D|----------------------------------14--13--12--10----------12--14-------------
A|--------------------------------------------------12--14---------------------
E|-----------------------------------------------------------------------------
http://www.guitartabcreator.com
Guitar Tab Creator is intended to store guitar tab created through the tool. It currently does not support in-line text editing. Any text you place in here will be lost. If you need to comment on your tab, please use the "Tab Notes" section located below.