My Solo

(/) Slide Up  (\) Slide Down  (h) Hammer On  (p) Pull Off  (b) Bend (r) Release (v) Vibrato


E|--------------------------------------------------------12------------------12--15--15-----
B|----------------7--8--10--12------------------7--8--10--12----------12--15-----------------
G|--12--11--9--7------------------12--11--9--7----------------12--14-------------------------
D|-------------------------------------------------------------------------------------------
A|-------------------------------------------------------------------------------------------
E|-------------------------------------------------------------------------------------------



E|--12------------------------------------------------12--15--17----------------15--
B|------15--12--------------------------------12--15--------------17--15--------15--
G|------------------12--14------------12--14------------------------------14----14--
D|----------------------------------------------------------------------------------
A|----------------------------------------------------------------------------------
E|----------------------------------------------------------------------------------
http://www.guitartabcreator.com
Guitar Tab Creator is intended to store guitar tab created through the tool. It currently does not support in-line text editing. Any text you place in here will be lost. If you need to comment on your tab, please use the "Tab Notes" section located below.