Long Time Coming Tab

Long Time Coming - One Night Only

Tabbed with love by joy <3

E|---------------------------------------------------
B|---------------------------------------------------
G|---------------0-----------------------------------
D|---------0-----------0-----2-----2-----2-----0-----
A|---------------------------------------------------
E|--0h2h3-----3-----3-----3-----3-----3-----3-----3--



E|---------------------------------------------------
B|---------------------------------------------------
G|---------------0-----------------------------------
D|---------0-----------0-----------0-----------------
A|---------------------------3-----------3-----2-----
E|--0h2h3-----3-----3-----3-----3-----3-----3-----3--


Repeat et cetera

i use dis for the chorus and shtuff http://www.guitaretab.com/o/one-night-only/312280.html
just make up your own plucking.
woohoo!

http://www.guitartabcreator.com
Guitar Tab Creator is intended to store guitar tab created through the tool. It currently does not support in-line text editing. Any text you place in here will be lost. If you need to comment on your tab, please use the "Tab Notes" section located below.