Unleashed Bass

(/) Slide Up  (\) Slide Down  (h) Hammer On  (p) Pull Off  (b) Bend (r) Release (v) Vibrato

t: E E E E E E E E E E E E E E E E
E|--------------------------------------------------
B|--------------------------------------------------
G|--------------------------------------------------
D|--------------------------------5--5--4--4--------
A|--------------------------------------------5--5--
E|--3--3--3--3--3--3--3--3--3--3--------------------


t: E E E E E E E E E E E E E E E E
E|--------------------------------------------------
B|--------------------------------------------------
G|--------------------------------------------------
D|--------------------------------5--5--4--4--------
A|--------------------------------------------5--5--
E|--0--0--0--0--0--0--0--0--0--0--------------------


t: E E E E E E E E E E E E E E E E
E|--------------------------------------------------
B|--------------------------------------------------
G|--------------------------------------------------
D|--0--0--0--0--0--0--0--0--0--0--7--7--5--5--4--4--
A|--------------------------------------------------
E|--------------------------------------------------



E|-----------------------------------------------------
B|-----------------------------------------------------
G|-----------------------------------------------------
D|--------------------------------5--5--4--4--------5--
A|--3--3--3--3--3--3--3--3--3--3--------------5--5-----
E|--------------------------------------------------3--
http://www.guitartabcreator.com
Guitar Tab Creator is intended to store guitar tab created through the tool. It currently does not support in-line text editing. Any text you place in here will be lost. If you need to comment on your tab, please use the "Tab Notes" section located below.