Unleashed

(/) Slide Up  (\) Slide Down  (h) Hammer On  (p) Pull Off  (b) Bend (r) Release (v) Vibrato
t: EE EE EE EE EE EE EE EE EE EE EE EE EE EE EE EE
E|--15--15--15--14--14--14------------------15--15--14--14----------
B|--------------------------15--15--15--15------------------15--15--
G|------------------------------------------------------------------
D|------------------------------------------------------------------
A|------------------------------------------------------------------
E|------------------------------------------------------------------


t: EE EE EE EE EE EE EE EE EE EE EE EE EE EE EE EE
E|--15--15--15--14--14--14------------------15--15--14--14----------
B|--------------------------15--15--15--15------------------15--15--
G|------------------------------------------------------------------
D|------------------------------------------------------------------
A|------------------------------------------------------------------
E|------------------------------------------------------------------


t: EE EE EE EE EE EE EE EE EE EE EE EE EE EE EE EE
E|--17--17--17--15--15--15--14--14--14--14--17--17--15--15--14--14--
B|------------------------------------------------------------------
G|------------------------------------------------------------------
D|------------------------------------------------------------------
A|------------------------------------------------------------------
E|------------------------------------------------------------------



E|--15--15--15--14--14--14------------------15--15--14--14----------
B|--------------------------15--15--15--15------------------15--15--
G|------------------------------------------------------------------
D|------------------------------------------------------------------
A|------------------------------------------------------------------
E|------------------------------------------------------------------



E|--
B|--
G|--
D|--
A|--
E|--
http://www.guitartabcreator.com
Guitar Tab Creator is intended to store guitar tab created through the tool. It currently does not support in-line text editing. Any text you place in here will be lost. If you need to comment on your tab, please use the "Tab Notes" section located below.