Purgatory

(/) Slide Up  (\) Slide Down  (h) Hammer On  (p) Pull Off  (b) Bend (r) Release (v) Vibrato


E|--------------------------------------------------
B|--------------------------------------------------
G|--------------------------------------------------
D|--------------------------------------------------
A|--------3--2--------2--1--------5--2--6--3--7--4--
E|--2--3--------1--2--------2--3--------------------



E|-----------------------------------------------------------------------------------------
B|-----------------------------------------------------------------------------------------
G|-----------------------------------------------------------------------------------------
D|-----------------------------------------------------------------------------------------
A|-----------------------------------------------------------------------------------------
E|--4--4--4--4--4--4--4--4--4--4--4--4--4--4--4--4--4--3--3--3--3--3--3--3--0--0--0--0--0--



E|------------------------------------------------------------------------
B|------------------------------------------------------------------------
G|------------------------------------------------------------------------
D|------------------------------------------------------------------------
A|--------------5--------6--------5--4--1--------------5--------6--10--8--
E|--5--4--0--0-----0--0-----5--4-----------5--4--0--0-----0--0------------



E|-----------------------------------------
B|-----------------------------------------
G|-----------------------------------------
D|-----------------------------------------
A|-----------------------------------------
E|--5--4--5--6--5--4--5--0--5--4--5--6--0--
http://www.guitartabcreator.com
Guitar Tab Creator is intended to store guitar tab created through the tool. It currently does not support in-line text editing. Any text you place in here will be lost. If you need to comment on your tab, please use the "Tab Notes" section located below.