#2

(/) Slide Up  (\) Slide Down  (h) Hammer On  (p) Pull Off  (b) Bend (r) Release (v) Vibrato

E|------------------------------------------------
B|------------------------------------------------
G|------------------------------------------------
D|------------------------------------------------
A|--1h2--------------------1h2--------2--3--6--5--
E|-------2--1--2--1--2--1-------2--1--------------



E|------------------------------------------------
B|------------------------------------------------
G|------------------------------------------------
D|------------------------------------------------
A|--1h2--------------------1h2--------------------
E|-------2--1--2--1--2--1-------2--1--2--1--0--1--



E|--------------------------------------------------
B|--------------------------------------------------
G|--------------------------------------------------
D|-----------------------7--------------------------
A|--5--8--7--4--5--8--7-----5--8--7--4--5-----4-----
E|-----------------------------------------8-----7--



E|--------------------------------------------------------------------------------------
B|--------------------------------------------------------------------------------------
G|--------------------------------------------------------------------------------------
D|-----------------------7--------------------------------------------------------------
A|--5--8--7--4--5--8--7-----5--8--7--4--5-----4-----5-----4-----------------------------
E|-----------------------------------------8-----7-----8-----7--0------0--0--0--0----0--



E|---------------------------------------------------
B|---------------------------------------------------
G|---------------------------------------------------
D|---------------------------------------------------
A|--8--5------------------------------------8--7--5--
E|--------8--5--0--0--0--0----0----5--7--8-----------



E|-------------------------------------------
B|-------------------------------------------
G|-------------------------------------------
D|-------------------------------5--7--8--7--
A|--8--5-------------------------------------
E|--------8--5--0--0--0--0----0--------------
http://www.guitartabcreator.com
Guitar Tab Creator is intended to store guitar tab created through the tool. It currently does not support in-line text editing. Any text you place in here will be lost. If you need to comment on your tab, please use the "Tab Notes" section located below.