SS BANNER

(/) Slide Up  (\) Slide Down  (h) Hammer On  (p) Pull Off  (b) Bend (r) Release (v) Vibrato


E|--------------------------------------
B|--------------------7--5--------------
G|-----------------7--------7-----------
D|--7--4-----4--7--------------4--6--7--
A|--------5-----------------------------
E|--------------------------------------



E|-----------------------------------------
B|--------7--5-----------------------------
G|--------------7--6--4--6--7--7-----------
D|--7--7--------------------------7--4-----
A|--------------------------------------5--
E|-----------------------------------------
http://www.guitartabcreator.com
Guitar Tab Creator is intended to store guitar tab created through the tool. It currently does not support in-line text editing. Any text you place in here will be lost. If you need to comment on your tab, please use the "Tab Notes" section located below.