Nephi's Courage

(/) Slide Up  (\) Slide Down  (h) Hammer On  (p) Pull Off  (b) Bend (r) Release (v) Vibrato


E|-----------------------------------------------------------------------------
B|-----------------------------------------------------------------------------
G|-----------------------------------------------------------------------------
D|--------3--3--5--7--3--3-----5--3--2--3-----3--3--5--6--3--3-----5--3--2--3--
A|--3--3--------------------5--------------3--------------------4--------------
E|-----------------------------------------------------------------------------



E|--------------------------------------------------------------------
B|--------------------------------------------------------------------
G|--5--6--6--5--2--2--3--5--3--1--0-----------------------------------
D|--------------------------------------3--3--5--7--3-----5--3--2--3--
A|-----------------------------------3-----------------5--------------
E|--------------------------------------------------------------------



E|--------------------------------------------------------------------------------
B|--------------------------------------------------------------------------------
G|-----------------5--3--2--0--2--3--0--3--7--3--5--2--3--0--2-----7--5--3--------
D|--------3-----------------------------------------------------3-----------3--2--
A|--3--3-----3--3-----------------------------------------------------------------
E|--------------------------------------------------------------------------------



E|--------------------------------------------------------------------------------
B|--------------------------------------------------------------------------------
G|-----------------5--3--2--0--2--3--0--3--7--3--5--2--3--0--2--------------------
D|--------3-----------------------------------------------------3-----5--3--2--3--
A|--3--3-----3--3--------------------------------------------------5--------------
E|--------------------------------------------------------------------------------
http://www.guitartabcreator.com
Guitar Tab Creator is intended to store guitar tab created through the tool. It currently does not support in-line text editing. Any text you place in here will be lost. If you need to comment on your tab, please use the "Tab Notes" section located below.