Ambient surf rock song

(/) Slide Up  (\) Slide Down  (h) Hammer On  (p) Pull Off  (b) Bend (r) Release (v) Vibrato

E|--------------------------------------------------------------------------------
B|--------------------------------------------------------------------------------
G|--------------------------------------------------------------------------------
D|--------------------------------------------------------------------------------
A|--------------------------3--3--3--2--2--2--------------------------------7--5--
E|--0--1--1--1--1--1--1--1--------------------3--3--5--5--5--5--5--5--5--5--------



E|--------------------------------------
B|-----------------------------------1--
G|-----------------------------------2--
D|-----------------------------------2--
A|--2--3--3--3--3--3--3--2--5--3--2--0--
E|--------------------------------------
http://www.guitartabcreator.com
Guitar Tab Creator is intended to store guitar tab created through the tool. It currently does not support in-line text editing. Any text you place in here will be lost. If you need to comment on your tab, please use the "Tab Notes" section located below.