Y + M + S M 3

(/) Slide Up  (\) Slide Down  (h) Hammer On  (p) Pull Off  (b) Bend (r) Release (v) Vibrato
E|--------------3--0--3-----0----------------------3--0--3-----0--------------------
B|--------------------------------3--3--3--1-------------------------3--3--3--1-----
G|----------------------------------------------------------------------------------
D|-----2-----2-----2-----------2-----2--------2-------2-----------2-----2--------2--
A|--3-----3-----3--------3--------3-----3----------3--------3--------3-----3--------
E|----------------------------------------------------------------------------------



E|----------------------------------------------------------------------
B|----------------------------------------------------1--------1--------
G|--3--3--3--0-----0--0-----3----------3--3--3--0--------0--------------
D|-----2--------2--------2--------2-------2--------2--------2--------2--
A|--3-----3--------3-----------3-------3-----3--------3-----------3-----
E|----------------------------------------------------------------------



E|--1--------1----------------------------------------
B|-----1-----------1-------1-----1-----3-----1-----0--
G|--------2-----------1h2-----1-----1-----------1-----
D|----------------------------------------------------
A|--------3-----------3-------------3-----------3-----
E|--1-----------1-------------1-----------1-----------



E|-----------0-------------------------0-----------
B|--------1--------1-----1----------1--------1-----
G|-----0--------------0----------0--------------0--
D|--------2-----------2-------------2-----------2--
A|--3-----------3-------------3-----------3--------
E|-------------------------------------------------



E|-----------3-----------------1--------
B|--------0-----0-----------0-----0-----
G|-----0-----------0-----0-----------0--
D|--------------------------------------
A|-----------2-----------------2--------
E|--3-----------------3-----------------
http://www.guitartabcreator.com
Guitar Tab Creator is intended to store guitar tab created through the tool. It currently does not support in-line text editing. Any text you place in here will be lost. If you need to comment on your tab, please use the "Tab Notes" section located below.