A Y D

(/) Slide Up  (\) Slide Down  (h) Hammer On  (p) Pull Off  (b) Bend (r) Release (v) Vibrato
E|--------12-------------11-------------------------------------
B|-----9------9------10------10---------10------------9--10--9--
G|--9------------11------------------9----------9h11------------
D|-------------------------------11---------11------------------
A|--------------------------------------------------------------
E|--------------------------------------------------------------



E|----------------------------------------------------------------
B|--10------10------12------12------10------10--------------------
G|------11------11------13------13------11------11------9------9--
D|--------------------------------------------------11------------
A|---------------------------------------------------------11-----
E|----------------------------------------------------------------



E|----------------------------------------------------------------
B|--10------10------12------12------10------10--------------------
G|------11------11------13------13------11------11----11--11------
D|------------------------------------------------------------11--
A|----------------------------------------------------------------
E|----------------------------------------------------------------
http://www.guitartabcreator.com
Guitar Tab Creator is intended to store guitar tab created through the tool. It currently does not support in-line text editing. Any text you place in here will be lost. If you need to comment on your tab, please use the "Tab Notes" section located below.