Spider

(/) Slide Up  (\) Slide Down  (h) Hammer On  (p) Pull Off  (b) Bend (r) Release (v) Vibrato


E|--5--1---------------1---------------------
B|--------3---------------3------------------
G|-----------2h3p2-----------2--2h3p2--------
D|------------------3------------------3--0--
A|-------------------------------------------
E|-------------------------------------------



E|--1--1--1/5--5h6p5----------------------1--1--1/5--5h6p5---------------
B|-----------------------------------3--------------------------------3--
G|------------------------------2h3-------------------------2h3p2--------
D|-------------------------0h3-------------------------------------3-----
A|--------------------0h3------------------------------------------------
E|-----------------------------------------------------------------------



E|--1--1--1/5--5h6p5----------------------
B|-------------------------------------3--
G|------------------------------0h2h3-----
D|-------------------------0h3------------
A|--------------------0h3-----------------
E|----------------------------------------



E|-------------------------------------1------------------------------5--1------------------
B|--0h1h3--3--1--0--0h1h3--3----0h1h3-----3--1--0--0h1h3--3----0h1h3--------1--0--0h1h3--3--
G|------------------------------------------------------------------------------------------
D|------------------------------------------------------------------------------------------
A|------------------------------------------------------------------------------------------
E|------------------------------------------------------------------------------------------
http://www.guitartabcreator.com
Guitar Tab Creator is intended to store guitar tab created through the tool. It currently does not support in-line text editing. Any text you place in here will be lost. If you need to comment on your tab, please use the "Tab Notes" section located below.